La Daurade

A vous de juger...
 
AccueilAccueil  FAQFAQ  RechercherRechercher  S'enregistrerS'enregistrer  MembresMembres  GroupesGroupes  Connexion  

Partagez | 
 

 jeff lang

Aller en bas 
AuteurMessage
adrien
Invité



MessageSujet: jeff lang   Ven 1 Sep - 13:23

un bluesman australien que j'ai rencontré devant le quick de la garre... j'ai joué de la guitarre avec lui, il ma offert un de ses CD... waoh!
Revenir en haut Aller en bas
adrien
Invité



MessageSujet: Re: jeff lang   Ven 1 Sep - 13:23

#----------------------------------PLEASE NOTE---------------------------------#
#This file is the author's own work and represents their interpretation of the #
#song. You may only use this file for private study, scholarship, or research. #
#------------------------------------------------------------------------------##

Big Feeling
EABEBE Capo 3rd

The slappy-style strum is best acheived with a few thumb slaps and your pointer finger. Lots of suttle (and not so subtle) hammer-ons. I'll give the main line in the chorus, the chords for the verse and the bridge chords. The solo, well, it's Lang, that's all I can say. No clue in hell.

"lost my self respect"
E--0----------0----------------------------
B--0----------0----------------------------
E--0----------0----------------------------
B0h2----------0----------------------------
A--0--------0h2----------------------------
E--0----------0-----------------------------

Surf around for the right rythym...Lots of room for variation

"Big Feeling...."
E--0---2h0---0---------------------0--------------
B--0-------2-----------------------0-----------
E--0---------0----2/4/2-0-----0----0------------------
B--0------------------------0h2h0--0---------------
A--2--------------------------0--0h2------------
E--0-0---0------0-------------0----0--------------

Bass might be a little off, not quite lined up. But it SHOULD be.

"Naked on the inside..."

E--0--0--0--0--0-0--0-------------------------------
B--0--0--0--0--0-0--0-------------------------------
E--2--0--2--0--0-0--0-------------------------------
B--4--2--4--2--5h7--2------------------------------
A--2--0--2--0--5-5--0--------------------------------
E--0--0--0--0--5-5--0--------------------------------

Those're just the chords, not too hard of a song, which is why a person such as myself was able to tab it. I'm thinking about maybe Prepare Me Well or London, but I think someone else was gonna do London, I dunno. Maybe Too Easy to Kill? Trainwreck? I'll try my friends...If you wish to yell at me for my horrible attempt at tabbing a wonderful song, kingfi1822@aol.com.

Peace
Revenir en haut Aller en bas
 
jeff lang
Revenir en haut 
Page 1 sur 1
 Sujets similaires
-
» K.D. Lang, chanteuse américaine
» Metropolis de F.Lang et....
» Site de Jeff
» JEFF GRAHAM NOUS A QUITTÉS
» Un film prémonitoire : "Métropolis" de Fritz Lang !

Permission de ce forum:Vous ne pouvez pas répondre aux sujets dans ce forum
La Daurade :: culture-
Sauter vers: